ISO-10303-21;
HEADER;
/* Generated by software containing ST-Developer
 * from STEP Tools, Inc. (www.steptools.com) 
 */

FILE_DESCRIPTION(
/* description */ (''),
/* implementation_level */ '2;1');

FILE_NAME(
/* name */ '',
/* time_stamp */ '2025-07-23T16:14:48+07:00',
/* author */ ('zeta-86'),
/* organization */ (''),
/* preprocessor_version */ 'ST-DEVELOPER v19.2',
/* originating_system */ 'Autodesk Inventor 2024',
/* authorisation */ '');

FILE_SCHEMA (('AUTOMOTIVE_DESIGN { 1 0 10303 214 3 1 1 }'));
ENDSEC;

DATA;
#10=MECHANICAL_DESIGN_GEOMETRIC_PRESENTATION_REPRESENTATION('',(#13),#408);
#11=SHAPE_REPRESENTATION_RELATIONSHIP('SRR','None',#415,#12);
#12=ADVANCED_BREP_SHAPE_REPRESENTATION('',(#14),#407);
#13=STYLED_ITEM('',(#424),#14);
#14=MANIFOLD_SOLID_BREP('\X2\04220432043504400434043E0435\X0\ \X2\04420435043B043E\X0\2',
#209);
#15=SPHERICAL_SURFACE('',#266,62.5);
#16=CONICAL_SURFACE('',#253,14.,0.785398163397446);
#17=CONICAL_SURFACE('',#257,15.575,0.785398163397448);
#18=CONICAL_SURFACE('',#263,15.575,0.785398163397447);
#19=LINE('',#362,#25);
#20=LINE('',#381,#26);
#21=LINE('',#390,#27);
#22=LINE('',#397,#28);
#23=LINE('',#399,#29);
#24=LINE('',#403,#30);
#25=VECTOR('',#289,15.15);
#26=VECTOR('',#314,14.);
#27=VECTOR('',#325,15.575);
#28=VECTOR('',#334,16.);
#29=VECTOR('',#337,15.575);
#30=VECTOR('',#342,17.5);
#31=CYLINDRICAL_SURFACE('',#241,15.15);
#32=CYLINDRICAL_SURFACE('',#250,42.4449455324706);
#33=CYLINDRICAL_SURFACE('',#260,16.);
#34=CYLINDRICAL_SURFACE('',#264,17.5);
#35=TOROIDAL_SURFACE('',#237,16.15,1.);
#36=FACE_BOUND('',#54,.T.);
#37=FACE_BOUND('',#63,.T.);
#38=FACE_BOUND('',#69,.T.);
#39=FACE_OUTER_BOUND('',#53,.T.);
#40=FACE_OUTER_BOUND('',#55,.T.);
#41=FACE_OUTER_BOUND('',#56,.T.);
#42=FACE_OUTER_BOUND('',#57,.T.);
#43=FACE_OUTER_BOUND('',#58,.T.);
#44=FACE_OUTER_BOUND('',#59,.T.);
#45=FACE_OUTER_BOUND('',#60,.T.);
#46=FACE_OUTER_BOUND('',#61,.T.);
#47=FACE_OUTER_BOUND('',#62,.T.);
#48=FACE_OUTER_BOUND('',#64,.T.);
#49=FACE_OUTER_BOUND('',#65,.T.);
#50=FACE_OUTER_BOUND('',#66,.T.);
#51=FACE_OUTER_BOUND('',#67,.T.);
#52=FACE_OUTER_BOUND('',#68,.T.);
#53=EDGE_LOOP('',(#136));
#54=EDGE_LOOP('',(#137));
#55=EDGE_LOOP('',(#138));
#56=EDGE_LOOP('',(#139,#140,#141,#142,#143));
#57=EDGE_LOOP('',(#144,#145,#146,#147,#148,#149));
#58=EDGE_LOOP('',(#150,#151));
#59=EDGE_LOOP('',(#152,#153));
#60=EDGE_LOOP('',(#154,#155,#156,#157));
#61=EDGE_LOOP('',(#158,#159,#160,#161));
#62=EDGE_LOOP('',(#162));
#63=EDGE_LOOP('',(#163));
#64=EDGE_LOOP('',(#164,#165,#166,#167,#168));
#65=EDGE_LOOP('',(#169,#170,#171,#172,#173,#174));
#66=EDGE_LOOP('',(#175,#176,#177,#178,#179,#180));
#67=EDGE_LOOP('',(#181,#182,#183,#184));
#68=EDGE_LOOP('',(#185));
#69=EDGE_LOOP('',(#186,#187,#188,#189));
#70=CIRCLE('',#233,17.5);
#71=CIRCLE('',#234,16.9756288851744);
#72=CIRCLE('',#236,13.75);
#73=CIRCLE('',#238,15.15);
#74=CIRCLE('',#239,1.);
#75=CIRCLE('',#240,15.15);
#76=CIRCLE('',#242,15.15);
#77=CIRCLE('',#243,15.15);
#78=CIRCLE('',#245,62.4919994879345);
#79=CIRCLE('',#246,42.4449455324706);
#80=CIRCLE('',#248,62.4919994879345);
#81=CIRCLE('',#249,42.4449455324706);
#82=CIRCLE('',#251,24.2397550910205);
#83=CIRCLE('',#252,24.2397550910243);
#84=CIRCLE('',#254,14.25);
#85=CIRCLE('',#256,15.15);
#86=CIRCLE('',#258,16.);
#87=CIRCLE('',#259,16.);
#88=CIRCLE('',#261,16.);
#89=CIRCLE('',#262,16.);
#90=CIRCLE('',#265,17.5);
#91=VERTEX_POINT('',#347);
#92=VERTEX_POINT('',#349);
#93=VERTEX_POINT('',#352);
#94=VERTEX_POINT('',#355);
#95=VERTEX_POINT('',#356);
#96=VERTEX_POINT('',#361);
#97=VERTEX_POINT('',#363);
#98=VERTEX_POINT('',#367);
#99=VERTEX_POINT('',#368);
#100=VERTEX_POINT('',#372);
#101=VERTEX_POINT('',#373);
#102=VERTEX_POINT('',#380);
#103=VERTEX_POINT('',#384);
#104=VERTEX_POINT('',#387);
#105=VERTEX_POINT('',#388);
#106=VERTEX_POINT('',#393);
#107=VERTEX_POINT('',#394);
#108=VERTEX_POINT('',#401);
#109=EDGE_CURVE('',#91,#91,#70,.T.);
#110=EDGE_CURVE('',#92,#92,#71,.T.);
#111=EDGE_CURVE('',#93,#93,#72,.T.);
#112=EDGE_CURVE('',#94,#95,#73,.T.);
#113=EDGE_CURVE('',#95,#92,#74,.T.);
#114=EDGE_CURVE('',#95,#94,#75,.T.);
#115=EDGE_CURVE('',#94,#96,#19,.T.);
#116=EDGE_CURVE('',#96,#97,#76,.T.);
#117=EDGE_CURVE('',#97,#96,#77,.T.);
#118=EDGE_CURVE('',#98,#99,#78,.T.);
#119=EDGE_CURVE('',#99,#98,#79,.T.);
#120=EDGE_CURVE('',#100,#101,#80,.T.);
#121=EDGE_CURVE('',#101,#100,#81,.T.);
#122=EDGE_CURVE('',#101,#98,#82,.T.);
#123=EDGE_CURVE('',#99,#100,#83,.T.);
#124=EDGE_CURVE('',#93,#102,#20,.T.);
#125=EDGE_CURVE('',#102,#102,#84,.T.);
#126=EDGE_CURVE('',#103,#103,#85,.T.);
#127=EDGE_CURVE('',#104,#105,#86,.T.);
#128=EDGE_CURVE('',#105,#103,#21,.T.);
#129=EDGE_CURVE('',#105,#104,#87,.T.);
#130=EDGE_CURVE('',#106,#107,#88,.T.);
#131=EDGE_CURVE('',#107,#106,#89,.T.);
#132=EDGE_CURVE('',#107,#104,#22,.T.);
#133=EDGE_CURVE('',#106,#97,#23,.T.);
#134=EDGE_CURVE('',#108,#108,#90,.T.);
#135=EDGE_CURVE('',#108,#91,#24,.T.);
#136=ORIENTED_EDGE('',*,*,#109,.F.);
#137=ORIENTED_EDGE('',*,*,#110,.T.);
#138=ORIENTED_EDGE('',*,*,#111,.F.);
#139=ORIENTED_EDGE('',*,*,#112,.T.);
#140=ORIENTED_EDGE('',*,*,#113,.T.);
#141=ORIENTED_EDGE('',*,*,#110,.F.);
#142=ORIENTED_EDGE('',*,*,#113,.F.);
#143=ORIENTED_EDGE('',*,*,#114,.T.);
#144=ORIENTED_EDGE('',*,*,#112,.F.);
#145=ORIENTED_EDGE('',*,*,#115,.T.);
#146=ORIENTED_EDGE('',*,*,#116,.T.);
#147=ORIENTED_EDGE('',*,*,#117,.T.);
#148=ORIENTED_EDGE('',*,*,#115,.F.);
#149=ORIENTED_EDGE('',*,*,#114,.F.);
#150=ORIENTED_EDGE('',*,*,#118,.F.);
#151=ORIENTED_EDGE('',*,*,#119,.F.);
#152=ORIENTED_EDGE('',*,*,#120,.F.);
#153=ORIENTED_EDGE('',*,*,#121,.F.);
#154=ORIENTED_EDGE('',*,*,#122,.F.);
#155=ORIENTED_EDGE('',*,*,#121,.T.);
#156=ORIENTED_EDGE('',*,*,#123,.F.);
#157=ORIENTED_EDGE('',*,*,#119,.T.);
#158=ORIENTED_EDGE('',*,*,#111,.T.);
#159=ORIENTED_EDGE('',*,*,#124,.T.);
#160=ORIENTED_EDGE('',*,*,#125,.T.);
#161=ORIENTED_EDGE('',*,*,#124,.F.);
#162=ORIENTED_EDGE('',*,*,#126,.F.);
#163=ORIENTED_EDGE('',*,*,#125,.F.);
#164=ORIENTED_EDGE('',*,*,#127,.T.);
#165=ORIENTED_EDGE('',*,*,#128,.T.);
#166=ORIENTED_EDGE('',*,*,#126,.T.);
#167=ORIENTED_EDGE('',*,*,#128,.F.);
#168=ORIENTED_EDGE('',*,*,#129,.T.);
#169=ORIENTED_EDGE('',*,*,#130,.F.);
#170=ORIENTED_EDGE('',*,*,#131,.F.);
#171=ORIENTED_EDGE('',*,*,#132,.T.);
#172=ORIENTED_EDGE('',*,*,#129,.F.);
#173=ORIENTED_EDGE('',*,*,#127,.F.);
#174=ORIENTED_EDGE('',*,*,#132,.F.);
#175=ORIENTED_EDGE('',*,*,#130,.T.);
#176=ORIENTED_EDGE('',*,*,#131,.T.);
#177=ORIENTED_EDGE('',*,*,#133,.T.);
#178=ORIENTED_EDGE('',*,*,#116,.F.);
#179=ORIENTED_EDGE('',*,*,#117,.F.);
#180=ORIENTED_EDGE('',*,*,#133,.F.);
#181=ORIENTED_EDGE('',*,*,#134,.F.);
#182=ORIENTED_EDGE('',*,*,#135,.T.);
#183=ORIENTED_EDGE('',*,*,#109,.T.);
#184=ORIENTED_EDGE('',*,*,#135,.F.);
#185=ORIENTED_EDGE('',*,*,#134,.T.);
#186=ORIENTED_EDGE('',*,*,#120,.T.);
#187=ORIENTED_EDGE('',*,*,#122,.T.);
#188=ORIENTED_EDGE('',*,*,#118,.T.);
#189=ORIENTED_EDGE('',*,*,#123,.T.);
#190=PLANE('',#232);
#191=PLANE('',#235);
#192=PLANE('',#244);
#193=PLANE('',#247);
#194=PLANE('',#255);
#195=ADVANCED_FACE('',(#39,#36),#190,.F.);
#196=ADVANCED_FACE('',(#40),#191,.F.);
#197=ADVANCED_FACE('',(#41),#35,.T.);
#198=ADVANCED_FACE('',(#42),#31,.T.);
#199=ADVANCED_FACE('',(#43),#192,.F.);
#200=ADVANCED_FACE('',(#44),#193,.T.);
#201=ADVANCED_FACE('',(#45),#32,.F.);
#202=ADVANCED_FACE('',(#46),#16,.F.);
#203=ADVANCED_FACE('',(#47,#37),#194,.T.);
#204=ADVANCED_FACE('',(#48),#17,.T.);
#205=ADVANCED_FACE('',(#49),#33,.T.);
#206=ADVANCED_FACE('',(#50),#18,.T.);
#207=ADVANCED_FACE('',(#51),#34,.T.);
#208=ADVANCED_FACE('',(#52,#38),#15,.T.);
#209=CLOSED_SHELL('',(#195,#196,#197,#198,#199,#200,#201,#202,#203,#204,
#205,#206,#207,#208));
#210=DERIVED_UNIT_ELEMENT(#213,1.);
#211=DERIVED_UNIT_ELEMENT(#410,-3.);
#212=DIMENSIONAL_EXPONENTS(0.,1.,0.,0.,0.,0.,0.);
#213=(
CONVERSION_BASED_UNIT('gram',#215)
MASS_UNIT()
NAMED_UNIT(#212)
);
#214=(
MASS_UNIT()
NAMED_UNIT(*)
SI_UNIT(.KILO.,.GRAM.)
);
#215=MASS_MEASURE_WITH_UNIT(MASS_MEASURE(0.001),#214);
#216=DERIVED_UNIT((#210,#211));
#217=MEASURE_REPRESENTATION_ITEM('density measure',
POSITIVE_RATIO_MEASURE(1.),#216);
#218=PROPERTY_DEFINITION_REPRESENTATION(#223,#220);
#219=PROPERTY_DEFINITION_REPRESENTATION(#224,#221);
#220=REPRESENTATION('material name',(#222),#407);
#221=REPRESENTATION('density',(#217),#407);
#222=DESCRIPTIVE_REPRESENTATION_ITEM('\X2\04220438043F043E0432044B0435\X0\',
'\X2\04220438043F043E0432044B0435\X0\');
#223=PROPERTY_DEFINITION('material property','material name',#417);
#224=PROPERTY_DEFINITION('material property','density of part',#417);
#225=DATE_TIME_ROLE('creation_date');
#226=APPLIED_DATE_AND_TIME_ASSIGNMENT(#227,#225,(#417));
#227=DATE_AND_TIME(#228,#229);
#228=CALENDAR_DATE(2023,9,10);
#229=LOCAL_TIME(11,26,41.,#230);
#230=COORDINATED_UNIVERSAL_TIME_OFFSET(0,0,.BEHIND.);
#231=AXIS2_PLACEMENT_3D('',#345,#267,#268);
#232=AXIS2_PLACEMENT_3D('',#346,#269,#270);
#233=AXIS2_PLACEMENT_3D('',#348,#271,#272);
#234=AXIS2_PLACEMENT_3D('',#350,#273,#274);
#235=AXIS2_PLACEMENT_3D('',#351,#275,#276);
#236=AXIS2_PLACEMENT_3D('',#353,#277,#278);
#237=AXIS2_PLACEMENT_3D('',#354,#279,#280);
#238=AXIS2_PLACEMENT_3D('',#357,#281,#282);
#239=AXIS2_PLACEMENT_3D('',#358,#283,#284);
#240=AXIS2_PLACEMENT_3D('',#359,#285,#286);
#241=AXIS2_PLACEMENT_3D('',#360,#287,#288);
#242=AXIS2_PLACEMENT_3D('',#364,#290,#291);
#243=AXIS2_PLACEMENT_3D('',#365,#292,#293);
#244=AXIS2_PLACEMENT_3D('',#366,#294,#295);
#245=AXIS2_PLACEMENT_3D('',#369,#296,#297);
#246=AXIS2_PLACEMENT_3D('',#370,#298,#299);
#247=AXIS2_PLACEMENT_3D('',#371,#300,#301);
#248=AXIS2_PLACEMENT_3D('',#374,#302,#303);
#249=AXIS2_PLACEMENT_3D('',#375,#304,#305);
#250=AXIS2_PLACEMENT_3D('',#376,#306,#307);
#251=AXIS2_PLACEMENT_3D('',#377,#308,#309);
#252=AXIS2_PLACEMENT_3D('',#378,#310,#311);
#253=AXIS2_PLACEMENT_3D('',#379,#312,#313);
#254=AXIS2_PLACEMENT_3D('',#382,#315,#316);
#255=AXIS2_PLACEMENT_3D('',#383,#317,#318);
#256=AXIS2_PLACEMENT_3D('',#385,#319,#320);
#257=AXIS2_PLACEMENT_3D('',#386,#321,#322);
#258=AXIS2_PLACEMENT_3D('',#389,#323,#324);
#259=AXIS2_PLACEMENT_3D('',#391,#326,#327);
#260=AXIS2_PLACEMENT_3D('',#392,#328,#329);
#261=AXIS2_PLACEMENT_3D('',#395,#330,#331);
#262=AXIS2_PLACEMENT_3D('',#396,#332,#333);
#263=AXIS2_PLACEMENT_3D('',#398,#335,#336);
#264=AXIS2_PLACEMENT_3D('',#400,#338,#339);
#265=AXIS2_PLACEMENT_3D('',#402,#340,#341);
#266=AXIS2_PLACEMENT_3D('',#404,#343,#344);
#267=DIRECTION('axis',(0.,0.,1.));
#268=DIRECTION('refdir',(1.,0.,0.));
#269=DIRECTION('center_axis',(0.,1.,0.));
#270=DIRECTION('ref_axis',(0.,0.,1.));
#271=DIRECTION('center_axis',(0.,1.,0.));
#272=DIRECTION('ref_axis',(1.,0.,0.));
#273=DIRECTION('center_axis',(-3.06161699786838E-17,1.,3.06161699786838E-17));
#274=DIRECTION('ref_axis',(0.,3.06161699786838E-17,-1.));
#275=DIRECTION('center_axis',(0.,1.,0.));
#276=DIRECTION('ref_axis',(0.,0.,1.));
#277=DIRECTION('center_axis',(0.,1.,0.));
#278=DIRECTION('ref_axis',(1.,0.,0.));
#279=DIRECTION('center_axis',(6.12323399573677E-17,-1.,-6.12323399573677E-17));
#280=DIRECTION('ref_axis',(6.49160026025431E-13,6.12337157008431E-17,-1.));
#281=DIRECTION('center_axis',(0.,1.,0.));
#282=DIRECTION('ref_axis',(-1.,0.,0.));
#283=DIRECTION('center_axis',(-1.,-6.12323399573279E-17,-6.49282215294176E-13));
#284=DIRECTION('ref_axis',(-6.49282215294176E-13,-6.12273938222864E-17,
1.));
#285=DIRECTION('center_axis',(0.,1.,0.));
#286=DIRECTION('ref_axis',(-1.,0.,0.));
#287=DIRECTION('center_axis',(0.,1.,0.));
#288=DIRECTION('ref_axis',(-1.,0.,0.));
#289=DIRECTION('',(0.,-1.,0.));
#290=DIRECTION('center_axis',(0.,1.,0.));
#291=DIRECTION('ref_axis',(1.,0.,0.));
#292=DIRECTION('center_axis',(0.,1.,0.));
#293=DIRECTION('ref_axis',(1.,0.,0.));
#294=DIRECTION('center_axis',(1.,0.,0.));
#295=DIRECTION('ref_axis',(0.,0.,-1.));
#296=DIRECTION('center_axis',(1.,0.,0.));
#297=DIRECTION('ref_axis',(0.,0.,1.));
#298=DIRECTION('center_axis',(1.,0.,0.));
#299=DIRECTION('ref_axis',(0.,1.,0.));
#300=DIRECTION('center_axis',(1.,0.,0.));
#301=DIRECTION('ref_axis',(0.,0.,-1.));
#302=DIRECTION('center_axis',(-1.,0.,0.));
#303=DIRECTION('ref_axis',(0.,0.,-1.));
#304=DIRECTION('center_axis',(-1.,0.,0.));
#305=DIRECTION('ref_axis',(0.,1.,0.));
#306=DIRECTION('center_axis',(1.,0.,0.));
#307=DIRECTION('ref_axis',(0.,-1.,-1.22464679914735E-16));
#308=DIRECTION('center_axis',(0.,-0.971907522087338,-0.235363056808096));
#309=DIRECTION('ref_axis',(0.0412545422280409,0.235162684939353,-0.971080107075451));
#310=DIRECTION('center_axis',(0.,-0.971907522087329,0.235363056808133));
#311=DIRECTION('ref_axis',(-0.0412545422280297,0.23516268493939,0.971080107075443));
#312=DIRECTION('center_axis',(0.,-1.,0.));
#313=DIRECTION('ref_axis',(1.,0.,0.));
#314=DIRECTION('',(-0.707106781186546,-0.707106781186549,-8.65956056235491E-17));
#315=DIRECTION('center_axis',(0.,-1.,0.));
#316=DIRECTION('ref_axis',(1.,0.,0.));
#317=DIRECTION('center_axis',(0.,-1.,0.));
#318=DIRECTION('ref_axis',(0.,0.,-1.));
#319=DIRECTION('center_axis',(0.,1.,0.));
#320=DIRECTION('ref_axis',(1.,0.,0.));
#321=DIRECTION('center_axis',(0.,1.,0.));
#322=DIRECTION('ref_axis',(1.,0.,0.));
#323=DIRECTION('center_axis',(0.,-1.,0.));
#324=DIRECTION('ref_axis',(1.,0.,0.));
#325=DIRECTION('',(0.707106781186547,-0.707106781186548,-8.65956056235493E-17));
#326=DIRECTION('center_axis',(0.,-1.,0.));
#327=DIRECTION('ref_axis',(1.,0.,0.));
#328=DIRECTION('center_axis',(0.,1.,0.));
#329=DIRECTION('ref_axis',(-1.,0.,0.));
#330=DIRECTION('center_axis',(0.,1.,0.));
#331=DIRECTION('ref_axis',(1.,0.,0.));
#332=DIRECTION('center_axis',(0.,1.,0.));
#333=DIRECTION('ref_axis',(1.,0.,0.));
#334=DIRECTION('',(0.,-1.,0.));
#335=DIRECTION('center_axis',(0.,-1.,0.));
#336=DIRECTION('ref_axis',(1.,0.,0.));
#337=DIRECTION('',(0.707106781186547,0.707106781186548,8.65956056235492E-17));
#338=DIRECTION('center_axis',(0.,1.,0.));
#339=DIRECTION('ref_axis',(-1.,0.,0.));
#340=DIRECTION('center_axis',(0.,1.,0.));
#341=DIRECTION('ref_axis',(1.,0.,0.));
#342=DIRECTION('',(0.,-1.,0.));
#343=DIRECTION('center_axis',(1.20792265079217E-16,0.,1.));
#344=DIRECTION('ref_axis',(1.,0.,-6.03961325396085E-17));
#345=CARTESIAN_POINT('',(0.,0.,0.));
#346=CARTESIAN_POINT('Origin',(-0.533584423938489,0.562380644696341,-2.22044604925031E-15));
#347=CARTESIAN_POINT('',(16.9664155760615,0.562380644696341,-4.36357794775818E-15));
#348=CARTESIAN_POINT('Origin',(-0.533584423938489,0.562380644696341,-2.22044604925031E-15));
#349=CARTESIAN_POINT('',(-0.533584423938487,0.56238064469634,16.9756288851744));
#350=CARTESIAN_POINT('Origin',(-0.533584423938489,0.562380644696341,-2.20317199092042E-15));
#351=CARTESIAN_POINT('Origin',(-0.533584423938489,-5.93761935530367,-2.22044604925031E-15));
#352=CARTESIAN_POINT('',(-14.2835844239385,-5.93761935530367,-5.36556700422702E-16));
#353=CARTESIAN_POINT('Origin',(-0.533584423938489,-5.93761935530367,-2.22044604925031E-15));
#354=CARTESIAN_POINT('Origin',(-0.533584423938489,-0.001832917676754,-2.22044604925031E-15));
#355=CARTESIAN_POINT('',(14.6164155760615,-0.001832917676754,-4.07578594995855E-15));
#356=CARTESIAN_POINT('',(-0.533584423948326,-0.001832917676754,15.15));
#357=CARTESIAN_POINT('Origin',(-0.533584423938489,-0.001832917676754,-2.22044604925031E-15));
#358=CARTESIAN_POINT('Origin',(-0.533584423948975,-0.00183291767675499,
16.15));
#359=CARTESIAN_POINT('Origin',(-0.533584423938489,-0.001832917676754,-2.22044604925031E-15));
#360=CARTESIAN_POINT('Origin',(-0.533584423938489,0.0623806446963393,-2.22044604925031E-15));
#361=CARTESIAN_POINT('',(14.6164155760615,-0.937619355303662,-4.07578594995855E-15));
#362=CARTESIAN_POINT('',(14.6164155760615,0.0623806446963393,-4.07578594995855E-15));
#363=CARTESIAN_POINT('',(-15.6835844239385,-0.937619355303662,-2.22044604925031E-15));
#364=CARTESIAN_POINT('Origin',(-0.533584423938489,-0.937619355303662,-2.22044604925031E-15));
#365=CARTESIAN_POINT('Origin',(-0.533584423938489,-0.937619355303662,-2.22044604925031E-15));
#366=CARTESIAN_POINT('Origin',(0.466415576061511,45.0073261771669,-2.22044604925031E-15));
#367=CARTESIAN_POINT('',(0.466415576061511,3.75233707593622,-9.97994366275324));
#368=CARTESIAN_POINT('',(0.466415576061511,3.75233707593622,9.97994366275324));
#369=CARTESIAN_POINT('Origin',(0.466415576061511,-57.9376193553037,-2.22044604925031E-15));
#370=CARTESIAN_POINT('Origin',(0.466415576061511,45.0073261771669,-2.22044604925031E-15));
#371=CARTESIAN_POINT('Origin',(-1.53358442393849,45.0073261771669,-2.22044604925031E-15));
#372=CARTESIAN_POINT('',(-1.53358442393849,3.75233707593622,9.97994366275324));
#373=CARTESIAN_POINT('',(-1.53358442393849,3.75233707593622,-9.97994366275324));
#374=CARTESIAN_POINT('Origin',(-1.53358442393849,-57.9376193553037,-2.22044604925031E-15));
#375=CARTESIAN_POINT('Origin',(-1.53358442393849,45.0073261771669,-2.22044604925031E-15));
#376=CARTESIAN_POINT('Origin',(-0.533584423938489,45.0073261771669,-2.22044604925031E-15));
#377=CARTESIAN_POINT('Origin',(-0.533584423938369,-1.94794881354057,13.5588003065176));
#378=CARTESIAN_POINT('Origin',(-0.53358442393873,-1.94794881354236,-13.5588003065211));
#379=CARTESIAN_POINT('Origin',(-0.533584423938489,-6.18761935530367,-2.22044604925031E-15));
#380=CARTESIAN_POINT('',(-14.7835844239385,-6.43761935530367,-3.96556773803529E-15));
#381=CARTESIAN_POINT('',(-14.5335844239385,-6.18761935530367,-3.93495156805661E-15));
#382=CARTESIAN_POINT('Origin',(-0.533584423938489,-6.43761935530367,-2.22044604925031E-15));
#383=CARTESIAN_POINT('Origin',(-16.5335844239385,-6.43761935530367,-2.22044604925031E-15));
#384=CARTESIAN_POINT('',(-15.6835844239385,-6.43761935530367,-3.65106148542073E-16));
#385=CARTESIAN_POINT('Origin',(-0.533584423938489,-6.43761935530367,-2.22044604925031E-15));
#386=CARTESIAN_POINT('Origin',(-0.533584423938489,-6.01261935530367,-2.22044604925031E-15));
#387=CARTESIAN_POINT('',(15.4664155760615,-5.58761935530367,-4.17988092788608E-15));
#388=CARTESIAN_POINT('',(-16.5335844239385,-5.58761935530367,-2.61011170614545E-16));
#389=CARTESIAN_POINT('Origin',(-0.533584423938489,-5.58761935530367,-2.22044604925031E-15));
#390=CARTESIAN_POINT('',(-16.1085844239385,-6.01261935530367,-3.13058659578307E-16));
#391=CARTESIAN_POINT('Origin',(-0.533584423938489,-5.58761935530367,-2.22044604925031E-15));
#392=CARTESIAN_POINT('Origin',(-0.533584423938489,-3.68761935530366,-2.22044604925031E-15));
#393=CARTESIAN_POINT('',(-16.5335844239385,-1.78761935530366,-2.61011170614548E-16));
#394=CARTESIAN_POINT('',(15.4664155760615,-1.78761935530366,-4.17988092788608E-15));
#395=CARTESIAN_POINT('Origin',(-0.533584423938489,-1.78761935530366,-2.22044604925031E-15));
#396=CARTESIAN_POINT('Origin',(-0.533584423938489,-1.78761935530366,-2.22044604925031E-15));
#397=CARTESIAN_POINT('',(15.4664155760615,-3.68761935530366,-4.17988092788608E-15));
#398=CARTESIAN_POINT('Origin',(-0.533584423938489,-1.36261935530366,-2.22044604925031E-15));
#399=CARTESIAN_POINT('',(-16.1085844239385,-1.36261935530366,-4.12783343892231E-15));
#400=CARTESIAN_POINT('Origin',(-0.533584423938489,1.31238064469634,-2.22044604925031E-15));
#401=CARTESIAN_POINT('',(16.9664155760615,2.06238064469634,-4.36357794775818E-15));
#402=CARTESIAN_POINT('Origin',(-0.533584423938489,2.06238064469634,-2.22044604925031E-15));
#403=CARTESIAN_POINT('',(16.9664155760615,1.31238064469634,-4.36357794775818E-15));
#404=CARTESIAN_POINT('Origin',(-0.533584423938482,-57.9376193553037,-2.22044604925031E-15));
#405=UNCERTAINTY_MEASURE_WITH_UNIT(LENGTH_MEASURE(0.01),#409,
'DISTANCE_ACCURACY_VALUE',
'Maximum model space distance between geometric entities at asserted c
onnectivities');
#406=UNCERTAINTY_MEASURE_WITH_UNIT(LENGTH_MEASURE(0.01),#409,
'DISTANCE_ACCURACY_VALUE',
'Maximum model space distance between geometric entities at asserted c
onnectivities');
#407=(
GEOMETRIC_REPRESENTATION_CONTEXT(3)
GLOBAL_UNCERTAINTY_ASSIGNED_CONTEXT((#405))
GLOBAL_UNIT_ASSIGNED_CONTEXT((#409,#411,#412))
REPRESENTATION_CONTEXT('','3D')
);
#408=(
GEOMETRIC_REPRESENTATION_CONTEXT(3)
GLOBAL_UNCERTAINTY_ASSIGNED_CONTEXT((#406))
GLOBAL_UNIT_ASSIGNED_CONTEXT((#409,#411,#412))
REPRESENTATION_CONTEXT('','3D')
);
#409=(
LENGTH_UNIT()
NAMED_UNIT(*)
SI_UNIT(.MILLI.,.METRE.)
);
#410=(
LENGTH_UNIT()
NAMED_UNIT(*)
SI_UNIT(.CENTI.,.METRE.)
);
#411=(
NAMED_UNIT(*)
PLANE_ANGLE_UNIT()
SI_UNIT($,.RADIAN.)
);
#412=(
NAMED_UNIT(*)
SI_UNIT($,.STERADIAN.)
SOLID_ANGLE_UNIT()
);
#413=SHAPE_DEFINITION_REPRESENTATION(#414,#415);
#414=PRODUCT_DEFINITION_SHAPE('',$,#417);
#415=SHAPE_REPRESENTATION('',(#231),#407);
#416=PRODUCT_DEFINITION_CONTEXT('part definition',#421,'design');
#417=PRODUCT_DEFINITION('\X2\0414043504420430043B044C\X0\12',
'\X2\0413041E04240420041E041C041004220418041A\X0\ \X2\04170420\X0\1-\X2\041B0420\X0\-
M',#418,#416);
#418=PRODUCT_DEFINITION_FORMATION('',$,#423);
#419=PRODUCT_RELATED_PRODUCT_CATEGORY(
'\X2\0413041E04240420041E041C041004220418041A\X0\ \X2\04170420\X0\1-\X2\041B0420\X0\-
M','\X2\0413041E04240420041E041C041004220418041A\X0\ \X2\04170420\X0\1
-\X2\041B0420\X0\-M',(#423));
#420=APPLICATION_PROTOCOL_DEFINITION('international standard',
'automotive_design',2009,#421);
#421=APPLICATION_CONTEXT(
'Core Data for Automotive Mechanical Design Process');
#422=PRODUCT_CONTEXT('part definition',#421,'mechanical');
#423=PRODUCT('\X2\0414043504420430043B044C\X0\12',
'\X2\0413041E04240420041E041C041004220418041A\X0\ \X2\04170420\X0\1-\X2\041B0420\X0\-
M',$,(#422));
#424=PRESENTATION_STYLE_ASSIGNMENT((#425));
#425=SURFACE_STYLE_USAGE(.BOTH.,#428);
#426=SURFACE_STYLE_RENDERING_WITH_PROPERTIES($,#432,(#427));
#427=SURFACE_STYLE_TRANSPARENT(0.);
#428=SURFACE_SIDE_STYLE('',(#429,#426));
#429=SURFACE_STYLE_FILL_AREA(#430);
#430=FILL_AREA_STYLE('',(#431));
#431=FILL_AREA_STYLE_COLOUR('',#432);
#432=COLOUR_RGB('',0.749019607843137,0.749019607843137,0.749019607843137);
ENDSEC;
END-ISO-10303-21;
